Announcement

Collapse

Welcome to Moorcock's Miscellany

Dear reader,

Many people have given their valuable time to create a website for the pleasure of posing questions to Michael Moorcock, meeting people from around the world, and mining the site for information. Please follow one of the links above to learn more about the site.

Thank you,
Reinart der Fuchs
See more
See less

UncleDes' Guitar Tabs 'o' Plenty

Collapse
X
 
  • Filter
  • Time
  • Show
Clear All
new posts

  • UncleDes' Guitar Tabs 'o' Plenty

    Over the years, I've tabbed a few different things other than Hawkwind.

    Prompted by seeing that Brewster and a few others seem to have tastes after my own: I thought I'd put them in here and see what response I get.

    This is New Model Army's "Nothing Touches" - which is a neat little finger-picker. The "chords" are strictly arpeggios, but it helps to see the chord that you should be playing. Note that this is what I hear: I've seen others tab it differently, but I seem to have a pretty good ear for major/minor and so on...

    ====
    #----------------------------------PLEASE NOTE---------------------------------#
    #This file is the author's own work and represents their interpretation of the #
    #song. You may only use this file for private study, scholarship, or research. #
    #------------------------------------------------------------------------------##

    NOTHING TOUCHES
    As recorded by New Model Army
    (From the 1989 Album THUNDER AND CONSOLATION)

    Words and Music by Justin Sullivan
    Transcribed by Andy Mackie

    Em7add9 G
    0 2 4 0 3 0 3 2 0 0 3 3

    Gtr I (E A D G B E) - 'Untitled'
    Gtr II (E A D G B E) - 'Untitled'

    Intro
    Q=100
    Em7add9
    4/4
    Gtr I
    E E E E E E E +E E E E E E E E +E
    |-----0--(0)---------------------|-------0--(0)---------------------|
    |-------------3--(3)-------------|---------------3--(3)-------------|
    |---------------------0--(0)-----|-----------------------0--(0)-----|
    |-----------------4--(4)---------|-------------------4--(4)---------|
    |---------2--(2)----------2--(2)-|-----------2--(2)----------2--(2)-|
    |--0-(0)-------------------------|---0--(0)-------------------------|
    |
    | Gtr II
    | <
    | ~~~~~~~~~~~~~~~~~~~~~~~~~~~~~~~~~~~~~~~~~~~~~~~~~~ ~~~~~~~~~~~~~~~~
    | W +W
    |--------------------------------|----------------------------------|
    |--------------------------------|----------------------------------|
    |-12-----------------------------|-(12)-----------------------------|
    |--------------------------------|----------------------------------|
    |--------------------------------|----------------------------------|
    |--------------------------------|----------------------------------|


    E E E E E E E +E E E E E E E E +E
    |-------0--(0)---------------------|-------0--(0)---------------------|
    |---------------3--(3)-------------|---------------3--(3)-------------|
    |-----------------------0--(0)-----|-----------------------0--(0)-----|
    |-------------------4--(4)---------|-------------------4--(4)---------|
    |-----------2--(2)----------2--(2)-|-----------2--(2)----------2--(2)-|
    |---0--(0)-------------------------|---0--(0)-------------------------|
    |
    |~~~~~~~~~~~~~~~~~~~~~~~~~~~~~~~~~~~~~~~~~
    | +W +W
    |----------------------------------|----------------------------------|
    |----------------------------------|----------------------------------|
    |-(12)-----------------------------|-(12)-----------------------------|
    |----------------------------------|----------------------------------|
    |----------------------------------|----------------------------------|
    |----------------------------------|----------------------------------|


    Link I
    Em7add9
    E E E E E E E +E E E E E E E E +E
    |----0--(0)---------------------|----0--(0)---------------------|
    |------------3--(3)-------------|------------3--(3)-------------|
    |--------------------0--(0)-----|--------------------0--(0)-----|
    |----------------4--(4)---------|----------------4--(4)---------|
    |--------2--(2)----------2--(2)-|--------2--(2)----------2--(2)-|
    |-0-(0)-------------------------|-0-(0)-------------------------|
    |
    | < <
    | W W
    |-------------------------------|-------------------------------|
    |-------------------------------|-------------------------------|
    |-------------------------------|-------------------------------|
    |-5-----------------------------|-4-----------------------------|
    |-------------------------------|-------------------------------|
    |-------------------------------|-------------------------------|


    E E E E E E E +E E E E E E E E +E
    |----0--(0)---------------------|------0--(0)---------------------|
    |------------3--(3)-------------|--------------3--(3)-------------|
    |--------------------0--(0)-----|----------------------0--(0)-----|
    |----------------4--(4)---------|------------------4--(4)---------|
    |--------2--(2)----------2--(2)-|----------2--(2)----------2--(2)-|
    |-0-(0)-------------------------|--0--(0)-------------------------|
    |
    | <
    | ~~~
    | W +W
    |-------------------------------|---------------------------------|
    |-------------------------------|---------------------------------|
    |-------------------------------|---------------------------------|
    |-------------------------------|---------------------------------|
    |-5-----------------------------|-(5)-----------------------------|
    |-------------------------------|---------------------------------|


    E E E E E E E +E E E E E E E E +E
    |----0--(0)---------------------|----0--(0)---------------------|
    |------------3--(3)-------------|------------3--(3)-------------|
    |--------------------0--(0)-----|--------------------0--(0)-----|
    |----------------4--(4)---------|----------------4--(4)---------|
    |--------2--(2)----------2--(2)-|--------2--(2)----------2--(2)-|
    |-0-(0)-------------------------|-0-(0)-------------------------|
    |
    | < <
    | W W
    |-------------------------------|-------------------------------|
    |-------------------------------|-------------------------------|
    |-------------------------------|-------------------------------|
    |-4-----------------------------|-------------------------------|
    |-------------------------------|-6-----------------------------|
    |-------------------------------|-------------------------------|


    E E E E E E E +E E E E E E E E +E
    |----0--(0)---------------------|-------0--(0)---------------------|
    |------------3--(3)-------------|---------------3--(3)-------------|
    |--------------------0--(0)-----|-----------------------0--(0)-----|
    |----------------4--(4)---------|-------------------4--(4)---------|
    |--------2--(2)----------2--(2)-|-----------2--(2)----------2--(2)-|
    |-0-(0)-------------------------|--0---(0)-------------------------|
    |
    | <
    | ~~~~
    | W +W
    |-------------------------------|----------------------------------|
    |-------------------------------|----------------------------------|
    |-------------------------------|----------------------------------|
    |-------------------------------|----------------------------------|
    |-------------------------------|----------------------------------|
    |-7-----------------------------|-(7)\-----------------------------|


    Verse I
    Em7add9
    E E E E E E E +E
    |----0--(0)---------------------|
    |------------3--(3)-------------|
    |--------------------0--(0)-----|
    |----------------4--(4)---------|
    |--------2--(2)----------2--(2)-|
    |-0-(0)-------------------------|
    |
    | W
    |-------------------------------|
    |-------------------------------|
    |-------------------------------|
    |-------------------------------|
    |-------------------------------|
    |-------------------------------|


    G C#
    E E E E E E E +E E E E E E E E E
    |----3--(3)---------------------|-------------------------------|
    |------------3--(3)-------------|----6--(6)----------6--(6)-----|
    |--------------------0--(0)-----|------------6--(6)----------6--|
    |----------------0--(0)---------|--------6--(6)----------6--(6)-|
    |--------2--(2)----------2--(2)-|-4-(4)----------4--(4)---------|
    |-3-(3)-------------------------|-------------------------------|
    |
    | W W
    |-------------------------------|-------------------------------|
    |-------------------------------|-------------------------------|
    |-------------------------------|-------------------------------|
    |-------------------------------|-------------------------------|
    |-------------------------------|-------------------------------|
    |-------------------------------|-------------------------------|


    Em7add9
    E E E E E E E E E E E E E E E +E
    |---------------------------------|----0--(0)---------------------|
    |------6--(6)----------6--(6)-----|------------3--(3)-------------|
    |-(6)----------6--(6)----------6--|--------------------0--(0)-----|
    |----------6--(6)----------6--(6)-|----------------4--(4)---------|
    |--4--(4)----------4--(4)---------|--------2--(2)----------2--(2)-|
    |---------------------------------|-0-(0)-------------------------|
    |
    | W W
    |---------------------------------|-------------------------------|
    |---------------------------------|-------------------------------|
    |---------------------------------|-------------------------------|
    |---------------------------------|-------------------------------|
    |---------------------------------|-------------------------------|
    |---------------------------------|-------------------------------|


    G C#
    E E E E E E E +E E E E E E E E E
    |----3--(3)---------------------|-------------------------------|
    |------------3--(3)-------------|----6--(6)----------6--(6)-----|
    |--------------------0--(0)-----|------------6--(6)----------6--|
    |----------------0--(0)---------|--------6--(6)----------6--(6)-|
    |--------2--(2)----------2--(2)-|-4-(4)----------4--(4)---------|
    |-3-(3)-------------------------|-------------------------------|
    |
    | W W
    |-------------------------------|-------------------------------|
    |-------------------------------|-------------------------------|
    |-------------------------------|-------------------------------|
    |-------------------------------|-------------------------------|
    |-------------------------------|-------------------------------|
    |-------------------------------|-------------------------------|


    C B
    E E E E E E E E E E E E E E E E
    |-------------------------------|-------------------------------|
    |----5--(5)----------5--(5)-----|----4--(4)----------4--(4)-----|
    |------------5--(5)----------5--|------------4--(4)----------4--|
    |--------5--(5)----------5--(5)-|--------4--(4)----------4--(4)-|
    |-3-(3)----------3--(3)---------|-2-(2)----------2--(2)---------|
    |-------------------------------|-------------------------------|
    |
    | W W
    |-------------------------------|-------------------------------|
    |-------------------------------|-------------------------------|
    |-------------------------------|-------------------------------|
    |-------------------------------|-------------------------------|
    |-------------------------------|-------------------------------|
    |-------------------------------|-------------------------------|


    D C
    E E E E E E E E E E E E E E E E
    |-------------------------------|-------------------------------|
    |----7--(7)----------7--(7)-----|----5--(5)----------5--(5)-----|
    |------------7--(7)----------7--|------------5--(5)----------5--|
    |--------7--(7)----------7--(7)-|--------5--(5)----------5--(5)-|
    |-5-(5)----------5--(5)---------|-3-(3)----------3--(3)---------|
    |-------------------------------|-------------------------------|
    |
    | W W
    |-------------------------------|-------------------------------|
    |-------------------------------|-------------------------------|
    |-------------------------------|-------------------------------|
    |-------------------------------|-------------------------------|
    |-------------------------------|-------------------------------|
    |-------------------------------|-------------------------------|


    F#
    E E E E E E E +E E E E E E E E +E
    |----2--(2)---------------------|----2--(2)---------------------|
    |------------2--(2)-------------|------------2--(2)-------------|
    |--------------------3--(3)-----|--------------------3--(3)-----|
    |----------------4--(4)---------|----------------4--(4)---------|
    |--------4--(4)----------4--(4)-|--------4--(4)----------4--(4)-|
    |-2-(2)-------------------------|-2-(2)-------------------------|
    |
    | W W
    |-------------------------------|-------------------------------|
    |-------------------------------|-------------------------------|
    |-------------------------------|-------------------------------|
    |-------------------------------|-------------------------------|
    |-------------------------------|-------------------------------|
    |-------------------------------|-------------------------------|


    Chorus I
    Em7add9
    E E E E E E E +E
    ||-----0--(0)----------------------||-|
    ||o------------3--(3)-------------o||-|
    ||---------------------0--(0)------||-|
    ||-----------------4--(4)----------||-|
    ||o--------2--(2)----------2--(2)-o||-|
    ||--0-(0)--------------------------||-|
    |
    | W
    ||---------------------------------||-|
    ||o-------------------------------o||-|
    ||---------------------------------||-|
    ||---------------------------------||-|
    ||o-------------------------------o||-|
    ||---------------------------------||-|


    Aadd4 Em7add9
    E E E E E E E +E E E E E E E E +E 4x
    ||-----0--(0)----------0--(0)------||-||-----0--(0)----------------------||
    ||o------------3--(3)-------------o||-||o------------3--(3)-------------o||
    ||-----------------2--(2)----------||-||---------------------0--(0)------||
    ||---------2--(2)----------2--(2)--||-||-----------------4--(4)----------||
    ||o-0-(0)-------------------------o||-||o--------2--(2)----------2--(2)-o||
    ||---------------------------------||-||--0-(0)--------------------------||
    |
    | W W 4x
    ||---------------------------------||-||---------------------------------||
    ||o-------------------------------o||-||o-------------------------------o||
    ||---------------------------------||-||---------------------------------||
    ||---------------------------------||-||---------------------------------||
    ||o-------------------------------o||-||o-------------------------------o||
    ||---------------------------------||-||---------------------------------||


    Verse II
    Em7add9 G
    E E E E E E E +E E E E E E E E +E
    |-----0--(0)---------------------|-----3--(3)---------------------|
    |-------------3--(3)-------------|-------------3--(3)-------------|
    |---------------------0--(0)-----|---------------------0--(0)-----|
    |-----------------4--(4)---------|-----------------0--(0)---------|
    |---------2--(2)----------2--(2)-|---------2--(2)----------2--(2)-|
    |--0-(0)-------------------------|--3-(3)-------------------------|
    |
    | W W
    |-12-----------------------------|-10-----------------------------|
    |--------------------------------|--------------------------------|
    |--------------------------------|--------------------------------|
    |--------------------------------|--------------------------------|
    |--------------------------------|--------------------------------|
    |--------------------------------|--------------------------------|


    C#
    E E E E E E E E E E E E E E E E
    |-------------------------------|---------------------------------|
    |----6--(6)----------6--(6)-----|------6--(6)----------6--(6)-----|
    |------------6--(6)----------6--|--------------6--(6)----------6--|
    |--------6--(6)----------6--(6)-|----------6--(6)----------6--(6)-|
    |-4-(4)----------4--(4)---------|--4--(4)----------4--(4)---------|
    |-------------------------------|---------------------------------|
    |
    | W +W
    |-9-----------------------------|-(9)-----------------------------|
    |-------------------------------|---------------------------------|
    |-------------------------------|---------------------------------|
    |-------------------------------|---------------------------------|
    |-------------------------------|---------------------------------|
    |-------------------------------|---------------------------------|


    Em7add9 G
    E E E E E E E +E E E E E E E E +E
    |-----0--(0)---------------------|-----3--(3)---------------------|
    |-------------3--(3)-------------|-------------3--(3)-------------|
    |---------------------0--(0)-----|---------------------0--(0)-----|
    |-----------------4--(4)---------|-----------------0--(0)---------|
    |---------2--(2)----------2--(2)-|---------2--(2)----------2--(2)-|
    |--0-(0)-------------------------|--3-(3)-------------------------|
    |
    | W W
    |-12-----------------------------|-10-----------------------------|
    |--------------------------------|--------------------------------|
    |--------------------------------|--------------------------------|
    |--------------------------------|--------------------------------|
    |--------------------------------|--------------------------------|
    |--------------------------------|--------------------------------|


    C# C
    E E E E E E E E E E E E E E E E
    |-------------------------------|-------------------------------|
    |----6--(6)----------6--(6)-----|----5--(5)----------5--(5)-----|
    |------------6--(6)----------6--|------------5--(5)----------5--|
    |--------6--(6)----------6--(6)-|--------5--(5)----------5--(5)-|
    |-4-(4)----------4--(4)---------|-3-(3)----------3--(3)---------|
    |-------------------------------|-------------------------------|
    |
    | W W
    |-9-----------------------------|-8-----------------------------|
    |-------------------------------|-------------------------------|
    |-------------------------------|-------------------------------|
    |-------------------------------|-------------------------------|
    |-------------------------------|-------------------------------|
    |-------------------------------|-------------------------------|


    B D C
    E E E E E E E E E E E E E E E E E E E E E E E E
    |-------------------------------|--------------------------------|--------------------------------|
    |----4--(4)----------4--(4)-----|-----7--(7)----------7--(7)-----|-----5--(5)----------5--(5)-----|
    |------------4--(4)----------4--|-------------7--(7)----------7--|-------------5--(5)----------5--|
    |--------4--(4)----------4--(4)-|---------7--(7)----------7--(7)-|---------5--(5)----------5--(5)-|
    |-2-(2)----------2--(2)---------|--5-(5)----------5--(5)---------|--3-(3)----------3--(3)---------|
    |-------------------------------|--------------------------------|--------------------------------|
    |
    | W W W
    |-7-----------------------------|-10-----------------------------|-12-----------------------------|
    |-------------------------------|--------------------------------|--------------------------------|
    |-------------------------------|--------------------------------|--------------------------------|
    |-------------------------------|--------------------------------|--------------------------------|
    |-------------------------------|--------------------------------|--------------------------------|
    |-------------------------------|--------------------------------|--------------------------------|


    F#
    E E E E E E E +E E E E E E E E +E
    |-----2--(2)---------------------|-------2--(2)---------------------|
    |-------------2--(2)-------------|---------------2--(2)-------------|
    |---------------------3--(3)-----|-----------------------3--(3)-----|
    |-----------------4--(4)---------|-------------------4--(4)---------|
    |---------4--(4)----------4--(4)-|-----------4--(4)----------4--(4)-|
    |--2-(2)-------------------------|---2--(2)-------------------------|
    |
    | W +W
    |-14-----------------------------|-(14)-----------------------------|
    |--------------------------------|----------------------------------|
    |--------------------------------|----------------------------------|
    |--------------------------------|----------------------------------|
    |--------------------------------|----------------------------------|
    |--------------------------------|----------------------------------|


    Chorus II
    Em7add9
    E E E E E E E +E
    ||-----0--(0)----------------------||-|
    ||o------------3--(3)-------------o||-|
    ||---------------------0--(0)------||-|
    ||-----------------4--(4)----------||-|
    ||o--------2--(2)----------2--(2)-o||-|
    ||--0-(0)--------------------------||-|
    |
    | W
    ||---------------------------------||-|
    ||o-------------------------------o||-|
    ||---------------------------------||-|
    ||---------------------------------||-|
    ||o-------------------------------o||-|
    ||---------------------------------||-|


    Aadd4 Em7add9
    E E E E E E E +E E E E E E E E +E 4x
    ||-----0--(0)----------0--(0)------||-||-----0--(0)----------------------||
    ||o------------3--(3)-------------o||-||o------------3--(3)-------------o||
    ||-----------------2--(2)----------||-||---------------------0--(0)------||
    ||---------2--(2)----------2--(2)--||-||-----------------4--(4)----------||
    ||o-0-(0)-------------------------o||-||o--------2--(2)----------2--(2)-o||
    ||---------------------------------||-||--0-(0)--------------------------||
    |
    | W W 4x
    ||---------------------------------||-||---------------------------------||
    ||o-------------------------------o||-||o-------------------------------o||
    ||---------------------------------||-||---------------------------------||
    ||---------------------------------||-||---------------------------------||
    ||o-------------------------------o||-||o-------------------------------o||
    ||---------------------------------||-||---------------------------------||


    Bridge
    C#m C
    E E E E E E E E E E E E E E E E
    ||---------------------------------|-----------------------------------||
    ||o-----5--(5)----------5--(5)-----|-------5--(5)----------5--(5)-----o||
    ||--------------6--(6)----------6--|---------------5--(5)----------5---||
    ||----------6--(6)----------6--(6)-|-----------5--(5)----------5--(5)--||
    ||o--4-(4)----------4--(4)---------|---3--(3)----------3--(3)---------o||
    ||---------------------------------|-----------------------------------||
    |
    | W +W
    ||--12-----------------------------|-(12)------------------------------||
    ||o--------------------------------|----------------------------------o||
    ||---------------------------------|-----------------------------------||
    ||---------------------------------|-----------------------------------||
    ||o--------------------------------|----------------------------------o||
    ||---------------------------------|-----------------------------------||


    Ab Cm
    E E E E E E E +E E E E E E E E E
    |-----4--(4)---------------------||------------------------------------||
    |-------------4--(4)-------------||o-------4--(4)----------4--(4)-----o||
    |---------------------5--(5)-----||----------------5--(5)----------5---||
    |-----------------6--(6)---------||------------5--(5)----------5--(5)--||
    |---------6--(6)----------6--(6)-||o---3--(3)----------3--(3)---------o||
    |--4-(4)-------------------------||------------------------------------||
    |
    | W +W
    |-11-----------------------------||--(11)------------------------------||
    |--------------------------------||o----------------------------------o||
    |--------------------------------||------------------------------------||
    |--------------------------------||------------------------------------||
    |--------------------------------||o----------------------------------o||
    |--------------------------------||------------------------------------||


    Link II
    Em7add9
    E E E E E E E +E E E E E E E E +E
    |----0--(0)---------------------|----0--(0)---------------------|
    |------------3--(3)-------------|------------3--(3)-------------|
    |--------------------0--(0)-----|--------------------0--(0)-----|
    |----------------4--(4)---------|----------------4--(4)---------|
    |--------2--(2)----------2--(2)-|--------2--(2)----------2--(2)-|
    |-0-(0)-------------------------|-0-(0)-------------------------|
    |
    | < <
    | W W
    |-------------------------------|-------------------------------|
    |-------------------------------|-------------------------------|
    |-------------------------------|-------------------------------|
    |-5-----------------------------|-4-----------------------------|
    |-------------------------------|-------------------------------|
    |-------------------------------|-------------------------------|


    E E E E E E E +E E E E E E E E +E
    |----0--(0)---------------------|------0--(0)---------------------|
    |------------3--(3)-------------|--------------3--(3)-------------|
    |--------------------0--(0)-----|----------------------0--(0)-----|
    |----------------4--(4)---------|------------------4--(4)---------|
    |--------2--(2)----------2--(2)-|----------2--(2)----------2--(2)-|
    |-0-(0)-------------------------|--0--(0)-------------------------|
    |
    | <
    | ~~~
    | W +W
    |-------------------------------|---------------------------------|
    |-------------------------------|---------------------------------|
    |-------------------------------|---------------------------------|
    |-------------------------------|---------------------------------|
    |-5-----------------------------|-(5)-----------------------------|
    |-------------------------------|---------------------------------|


    E E E E E E E +E E E E E E E E +E
    |----0--(0)---------------------|----0--(0)---------------------|
    |------------3--(3)-------------|------------3--(3)-------------|
    |--------------------0--(0)-----|--------------------0--(0)-----|
    |----------------4--(4)---------|----------------4--(4)---------|
    |--------2--(2)----------2--(2)-|--------2--(2)----------2--(2)-|
    |-0-(0)-------------------------|-0-(0)-------------------------|
    |
    | < <
    | W W
    |-------------------------------|-------------------------------|
    |-------------------------------|-------------------------------|
    |-------------------------------|-------------------------------|
    |-4-----------------------------|-------------------------------|
    |-------------------------------|-6-----------------------------|
    |-------------------------------|-------------------------------|


    E E E E E E E +E E E E E E E E +E
    |----0--(0)---------------------|-------0--(0)---------------------|
    |------------3--(3)-------------|---------------3--(3)-------------|
    |--------------------0--(0)-----|-----------------------0--(0)-----|
    |----------------4--(4)---------|-------------------4--(4)---------|
    |--------2--(2)----------2--(2)-|-----------2--(2)----------2--(2)-|
    |-0-(0)-------------------------|--0---(0)-------------------------|
    |
    | <
    | ~~~~
    | W +W
    |-------------------------------|----------------------------------|
    |-------------------------------|----------------------------------|
    |-------------------------------|----------------------------------|
    |-------------------------------|----------------------------------|
    |-------------------------------|----------------------------------|
    |-7-----------------------------|-(7)\-----------------------------|


    Verse III
    Em7add9 G
    E E E E E E E +E E E E E E E E +E
    |-----0--(0)---------------------|-----3--(3)---------------------|
    |-------------3--(3)-------------|-------------3--(3)-------------|
    |---------------------0--(0)-----|---------------------0--(0)-----|
    |-----------------4--(4)---------|-----------------0--(0)---------|
    |---------2--(2)----------2--(2)-|---------2--(2)----------2--(2)-|
    |--0-(0)-------------------------|--3-(3)-------------------------|
    |
    | W W
    |-12-----------------------------|-10-----------------------------|
    |--------------------------------|--------------------------------|
    |--------------------------------|--------------------------------|
    |--------------------------------|--------------------------------|
    |--------------------------------|--------------------------------|
    |--------------------------------|--------------------------------|


    C#
    E E E E E E E E E E E E E E E E
    |-------------------------------|---------------------------------|
    |----6--(6)----------6--(6)-----|------6--(6)----------6--(6)-----|
    |------------6--(6)----------6--|--------------6--(6)----------6--|
    |--------6--(6)----------6--(6)-|----------6--(6)----------6--(6)-|
    |-4-(4)----------4--(4)---------|--4--(4)----------4--(4)---------|
    |-------------------------------|---------------------------------|
    |
    | W +W
    |-9-----------------------------|-(9)-----------------------------|
    |-------------------------------|---------------------------------|
    |-------------------------------|---------------------------------|
    |-------------------------------|---------------------------------|
    |-------------------------------|---------------------------------|
    |-------------------------------|---------------------------------|


    Em7add9 G
    E E E E E E E +E E E E E E E E +E
    |-----0--(0)---------------------|-----3--(3)---------------------|
    |-------------3--(3)-------------|-------------3--(3)-------------|
    |---------------------0--(0)-----|---------------------0--(0)-----|
    |-----------------4--(4)---------|-----------------0--(0)---------|
    |---------2--(2)----------2--(2)-|---------2--(2)----------2--(2)-|
    |--0-(0)-------------------------|--3-(3)-------------------------|
    |
    | W W
    |-12-----------------------------|-10-----------------------------|
    |--------------------------------|--------------------------------|
    |--------------------------------|--------------------------------|
    |--------------------------------|--------------------------------|
    |--------------------------------|--------------------------------|
    |--------------------------------|--------------------------------|


    C# C
    E E E E E E E E E E E E E E E E
    |-------------------------------|-------------------------------|
    |----6--(6)----------6--(6)-----|----5--(5)----------5--(5)-----|
    |------------6--(6)----------6--|------------5--(5)----------5--|
    |--------6--(6)----------6--(6)-|--------5--(5)----------5--(5)-|
    |-4-(4)----------4--(4)---------|-3-(3)----------3--(3)---------|
    |-------------------------------|-------------------------------|
    |
    | W W
    |-9-----------------------------|-8-----------------------------|
    |-------------------------------|-------------------------------|
    |-------------------------------|-------------------------------|
    |-------------------------------|-------------------------------|
    |-------------------------------|-------------------------------|
    |-------------------------------|-------------------------------|


    B D C
    E E E E E E E E E E E E E E E E E E E E E E E E
    |-------------------------------|--------------------------------|--------------------------------|
    |----4--(4)----------4--(4)-----|-----7--(7)----------7--(7)-----|-----5--(5)----------5--(5)-----|
    |------------4--(4)----------4--|-------------7--(7)----------7--|-------------5--(5)----------5--|
    |--------4--(4)----------4--(4)-|---------7--(7)----------7--(7)-|---------5--(5)----------5--(5)-|
    |-2-(2)----------2--(2)---------|--5-(5)----------5--(5)---------|--3-(3)----------3--(3)---------|
    |-------------------------------|--------------------------------|--------------------------------|
    |
    | W W W
    |-7-----------------------------|-10-----------------------------|-12-----------------------------|
    |-------------------------------|--------------------------------|--------------------------------|
    |-------------------------------|--------------------------------|--------------------------------|
    |-------------------------------|--------------------------------|--------------------------------|
    |-------------------------------|--------------------------------|--------------------------------|
    |-------------------------------|--------------------------------|--------------------------------|


    F#
    E E E E E E E +E E E E E E E E +E
    |-----2--(2)---------------------|-------2--(2)---------------------|
    |-------------2--(2)-------------|---------------2--(2)-------------|
    |---------------------3--(3)-----|-----------------------3--(3)-----|
    |-----------------4--(4)---------|-------------------4--(4)---------|
    |---------4--(4)----------4--(4)-|-----------4--(4)----------4--(4)-|
    |--2-(2)-------------------------|---2--(2)-------------------------|
    |
    | W +W
    |-14-----------------------------|-(14)-----------------------------|
    |--------------------------------|----------------------------------|
    |--------------------------------|----------------------------------|
    |--------------------------------|----------------------------------|
    |--------------------------------|----------------------------------|
    |--------------------------------|----------------------------------|


    Chorus III
    Em7add9 Aadd4
    E E E E E E E +E E E E E E E E +E
    ||------0--(0)----------------------||-||------0--(0)----------0--(0)------||
    ||o-------------3--(3)-------------o||-||o-------------3--(3)-------------o||
    ||----------------------0--(0)------||-||------------------2--(2)----------||
    ||------------------4--(4)----------||-||----------2--(2)----------2--(2)--||
    ||o---------2--(2)----------2--(2)-o||-||o--0-(0)-------------------------o||
    ||---0-(0)--------------------------||-||----------------------------------||
    |
    | W W
    ||----------------------------------||-||--10------------------------------||
    ||o-12-----------------------------o||-||o--------------------------------o||
    ||----------------------------------||-||----------------------------------||
    ||----------------------------------||-||----------------------------------||
    ||o--------------------------------o||-||o--------------------------------o||
    ||----------------------------------||-||----------------------------------||


    Em7add9 Aadd4
    E E E E E E E +E E E E E E E E +E
    |-||------0--(0)----------------------||-||------0--(0)----------0--(0)------||
    |-||o-------------3--(3)-------------o||-||o-------------3--(3)-------------o||
    |-||----------------------0--(0)------||-||------------------2--(2)----------||
    |-||------------------4--(4)----------||-||----------2--(2)----------2--(2)--||
    |-||o---------2--(2)----------2--(2)-o||-||o--0-(0)-------------------------o||
    |-||---0-(0)--------------------------||-||----------------------------------||
    |
    | W W
    |-||--14------------------------------||-||--12------------------------------||
    |-||o--------------------------------o||-||o--------------------------------o||
    |-||----------------------------------||-||----------------------------------||
    |-||----------------------------------||-||----------------------------------||
    |-||o--------------------------------o||-||o--------------------------------o||
    |-||----------------------------------||-||----------------------------------||


    Outro
    Q=96
    Em7add9 Aadd4
    E E E E E E E +E E E E E E E E +E
    ||------0--(0)----------------------||-||------0--(0)----------0--(0)------||
    ||o-------------3--(3)-------------o||-||o-------------3--(3)-------------o||
    ||----------------------0--(0)------||-||------------------2--(2)----------||
    ||------------------4--(4)----------||-||----------2--(2)----------2--(2)--||
    ||o---------2--(2)----------2--(2)-o||-||o--0-(0)-------------------------o||
    ||---0-(0)--------------------------||-||----------------------------------||
    |
    | W W
    ||--14------------------------------||-||--12------------------------------||
    ||o--------------------------------o||-||o--------------------------------o||
    ||----------------------------------||-||----------------------------------||
    ||----------------------------------||-||----------------------------------||
    ||o--------------------------------o||-||o--------------------------------o||
    ||----------------------------------||-||----------------------------------||


    Q=80 Q=70 Q=60
    Em7add9
    E E E E E E E +E E E E E E E E +E
    |-----0--(0)---------------------|-------0--(0)---------------------*|
    |-------------3--(3)-------------|---------------3--(3)-------------*|
    |---------------------0--(0)-----|-----------------------0--(0)-----*|
    |-----------------4--(4)---------|-------------------4--(4)---------*|
    |---------2--(2)----------2--(2)-|-----------2--(2)----------2--(2)-*|
    |--0-(0)-------------------------|---0--(0)-------------------------*|
    |
    | >
    | W +W
    |-14-----------------------------|-(14)-----------------------------*|
    |--------------------------------|----------------------------------*|
    |--------------------------------|----------------------------------*|
    |--------------------------------|----------------------------------*|
    |--------------------------------|----------------------------------*|
    |--------------------------------|----------------------------------*|


    Duration Legend
    ---------------
    W - whole; H - half; Q - quarter; E - 8th; S - 16th; T - 32nd; X - 64th; a - acciaccatura
    + - note tied to previous; . - note dotted; .. - note double dotted
    Uncapitalized letters represent notes that are staccato (1/2 duration)
    Irregular groupings are notated above the duration line
    Duration letters will always appear directly above the note/fret number it represents the
    duration for. Duration letters with no fret number below them represent rests. Multi-
    bar rests are notated in the form Wxn, where n is the number of bars to rest for. Low
    melody durations appear below the staff

    Tablature Legend
    ----------------
    h - hammer-on
    p - pull-off
    b - bend
    pb - pre-bend
    r - bend release (if no number after the r, then release immediately)
    /\ - slide into or out of (from/to "nowhere")
    s - legato slide
    S - shift slide
    <n> - natural harmonic
    [n] - artificial harmonic
    n(n) - tapped harmonic
    ~ - vibrato
    tr - trill
    T - tap
    TP - trem. picking
    PM - palm muting
    \n/ - tremolo bar dip; n = amount to dip
    \n - tremolo bar down
    n/ - tremolo bar up
    /n\ - tremolo bar inverted dip
    = - hold bend; also acts as connecting device for hammers/pulls
    <> - volume swell (louder/softer)
    x - on rhythm slash represents muted slash
    o - on rhythm slash represents single note slash

    Misc Legend
    -----------
    | - bar
    || - double bar
    ||o - repeat start
    o|| - repeat end
    *| - double bar (ending)
    : - bar (freetime)
    $ - Segno
    & - Coda
    Tempo markers - <E/E./Q/Q./H/H.> = BPM(8/16=s8/s16), where s8 = swing 8ths, s16 = swing 16ths


    ************************************************** *************************************
    * Generated using Power Tab Editor by Brad Larsen - http://powertab.guitarnetwork.org *
    ************************************************** *************************************
    Spacerockmanifesto on Facebook

    Hawkwind tabs

  • #2
    Is this another thread I'm gonna have to 5-star?

    What do you mean you don't know any of 5 Star's tunes..? ;)

    Comment


    • #3
      As long as its The Midas Touch or System Addict as i still cant get my hed around the intricate changes!

      Excellent track well tabbed Des!

      Any chance of any more NMA?
      "I hate to advocate drugs,alcohol,violence or insanity to anyone,but they've always worked for me"

      Hunter S Thompson

      Comment


      • #4
        Originally posted by Rothgo View Post
        Is this another thread I'm gonna have to 5-star?

        What do you mean you don't know any of 5 Star's tunes..? ;)
        Early days yet, buddy!
        Spacerockmanifesto on Facebook

        Hawkwind tabs

        Comment


        • #5
          Originally posted by thingfish View Post
          As long as its The Midas Touch or System Addict as i still cant get my hed around the intricate changes!

          Excellent track well tabbed Des!

          Any chance of any more NMA?
          Thanks!

          Does an actual MUSICIAN like you (not a sad wannabe like me) need tabs for NMA?
          Spacerockmanifesto on Facebook

          Hawkwind tabs

          Comment


          • #6
            Wannabe my spotty lilywhite Des!!

            Just curious as to what yer next choice was going to be as Nothing Touches was a nice reminder to dig out the album again!
            "I hate to advocate drugs,alcohol,violence or insanity to anyone,but they've always worked for me"

            Hunter S Thompson

            Comment


            • #7
              I hope that is a good thing, TF??!!! Spotty lilywhite...ermmm

              Here's some Dead Can Dance. The "Solo" takes a little while to get fingers round smoothly, but sounds really cool once you nail it.

              #----------------------------------PLEASE NOTE---------------------------------#
              #This file is the author's own work and represents their interpretation of the #
              #song. You may only use this file for private study, scholarship, or research. #
              #------------------------------------------------------------------------------##

              ANYWHERE OUT OF THE WORLD
              As recorded by Dead Can Dance
              (From the 1987 Album WITHIN THE REALM OF A DYING SUN)

              Words and Music by Brendan Perry / Lisa Gerrard (Dead Can Dance)
              Transcribed by UncleDes

              Gtr I (E A D G B E) - 'Strings1'
              Gtr II (E A D G B E) - 'Marimba'
              Gtr III (E A D G B E) - 'SynBrass'
              Gtr IV (E A D G B E) - 'Spooky'

              Intro
              Q=72
              C#m Cm C#m Bbm
              4/4
              Gtr II
              W W W W
              ||--4--------|-3--------|-4--------|-6-----||
              ||o----------|----------|----------|------o||
              ||--6--------|-5--------|-6--------|-6-----||
              ||-----------|----------|----------|-------||
              ||o----------|----------|----------|------o||
              ||-----------|----------|----------|-------||


              Intro II
              C#m Cm C#m Bbm
              W W W W
              |-4--------|-3--------|-4--------|-6----|
              |----------|----------|----------|------|
              |-6--------|-5--------|-6--------|-6----|
              |----------|----------|----------|------|
              |----------|----------|----------|------|
              |----------|----------|----------|------|
              |
              | Gtr I
              | W W W W
              |----------|----------|----------|------|
              |----------|----------|----------|------|
              |----------|----------|----------|------|
              |----------|----------|----------|------|
              |-4--------|-3--------|-4--------|-1----|
              |----------|----------|----------|------|


              C#m Cm C#m Bbm
              W W W W
              |-4--------|-3--------|-4--------|-6----|
              |----------|----------|----------|------|
              |-6--------|-5--------|-6--------|-6----|
              |----------|----------|----------|------|
              |----------|----------|----------|------|
              |----------|----------|----------|------|
              |
              | W W W W
              |----------|----------|----------|------|
              |----------|----------|----------|------|
              |----------|----------|----------|------|
              |-6--------|-1--------|-2--------|-3----|
              |-4--------|-3--------|-4--------|-1----|
              |----------|----------|----------|------|


              C#m Cm C#m Bbm
              W W W W
              ||--4--------|-3--------|-4--------|-6-----||
              ||o----------|----------|----------|------o||
              ||--6--------|-5--------|-6--------|-6-----||
              ||-----------|----------|----------|-------||
              ||o----------|----------|----------|------o||
              ||-----------|----------|----------|-------||
              |
              | Gtr III
              | < < < <
              | W W W W
              ||--4--------|-3--------|----------|-------||
              ||o----------|----------|-5--------|-6----o||
              ||--6--------|-5--------|-6--------|-------||
              ||-----------|----------|----------|-8-----||
              ||o----------|----------|----------|------o||
              ||-----------|----------|----------|-------||


              Verse I
              Q=92
              C#m Cm C#m Bbm
              Gtr II
              Q Q Q Q Q Q Q Q Q Q Q Q Q Q Q Q 4x
              ||--4--4--4--4--|-3--3--3--3--|-4--4--4--4--|-6--6--6--6---||
              ||o-------------|-------------|-------------|-------------o||
              ||--6--6--6--6--|-5--5--5--5--|-6--6--6--6--|-6--6--6--6---||
              ||--------------|-------------|-------------|--------------||
              ||o-------------|-------------|-------------|-------------o||
              ||--------------|-------------|-------------|--------------||


              Chorus I
              C#m Cm C#m Bbm
              Q Q Q Q Q Q Q Q Q Q Q Q Q Q Q Q
              ||--4--4--4--4--|-3--3--3--3--|-4--4--4--4--|-6--6--6--6---||
              ||o-------------|-------------|-------------|-------------o||
              ||--6--6--6--6--|-5--5--5--5--|-6--6--6--6--|-6--6--6--6---||
              ||--------------|-------------|-------------|--------------||
              ||o-------------|-------------|-------------|-------------o||
              ||--------------|-------------|-------------|--------------||
              |
              | Gtr I
              | W W W W
              ||--4-----------|-3-----------|-------------|--------------||
              ||o-------------|-------------|-5-----------|-6-----------o||
              ||--6-----------|-5-----------|-6-----------|--------------||
              ||--------------|-------------|-------------|-8------------||
              ||o-------------|-------------|-------------|-------------o||
              ||--------------|-------------|-------------|--------------||


              Verse II
              C#m Cm C#m Bbm
              Q Q Q Q Q Q Q Q Q Q Q Q Q Q Q Q
              ||--4--4--4--4--|-3--3--3--3--|-4--4--4--4--|-6--6--6--6---||
              ||o-------------|-------------|-------------|-------------o||
              ||--6--6--6--6--|-5--5--5--5--|-6--6--6--6--|-6--6--6--6---||
              ||--------------|-------------|-------------|--------------||
              ||o-------------|-------------|-------------|-------------o||
              ||--------------|-------------|-------------|--------------||


              Chorus II
              C#m Cm C#m Bbm
              Gtr II
              Q Q Q Q Q Q Q Q Q Q Q Q Q Q Q Q
              ||--4--4--4--4--|-3--3--3--3--|-4--4--4--4--|-6--6--6--6---||
              ||o-------------|-------------|-------------|-------------o||
              ||--6--6--6--6--|-5--5--5--5--|-6--6--6--6--|-6--6--6--6---||
              ||--------------|-------------|-------------|--------------||
              ||o-------------|-------------|-------------|-------------o||
              ||--------------|-------------|-------------|--------------||
              |
              | Gtr I
              | W W W W
              ||--4-----------|-3-----------|-------------|--------------||
              ||o-------------|-------------|-5-----------|-6-----------o||
              ||--6-----------|-5-----------|-6-----------|--------------||
              ||--------------|-------------|-------------|-8------------||
              ||o-------------|-------------|-------------|-------------o||
              ||--------------|-------------|-------------|--------------||


              Intro to Solo
              C#m Cm C#m Bbm
              Q Q Q Q Q Q Q Q Q Q Q Q Q Q Q Q
              ||--4--4--4--4--|-3--3--3--3--|-4--4--4--4--|-6--6--6--6---||
              ||o-------------|-------------|-------------|-------------o||
              ||--6--6--6--6--|-5--5--5--5--|-6--6--6--6--|-6--6--6--6---||
              ||--------------|-------------|-------------|--------------||
              ||o-------------|-------------|-------------|-------------o||
              ||--------------|-------------|-------------|--------------||
              |
              | Gtr IV
              | H Q Q H Q Q H Q Q H Q Q
              ||--------------|-------------|-------------|----------4---||
              ||o-------4--5--|-------------|-------4--5--|-------4-----o||
              ||--------------|----------5--|-------------|--------------||
              ||--------------|-------6-----|-------------|--------------||
              ||o-------------|-------------|-------------|-------------o||
              ||--------------|-------------|-------------|--------------||


              Solo
              C#m Cm
              |-3--|
              E. E. Q E E E E. E. Q E E S S S
              ||--9----------------|---------------------|
              ||o----9--10--7-9----|-7------------7-9-10-|
              ||----------------9--|----9--8--6-9--------|
              ||-------------------|---------------------|
              ||o------------------|---------------------|
              ||-------------------|---------------------|
              |
              | Gtr I
              | W W
              ||-------------------|---------------------|
              ||o------------------|---------------------|
              ||-------------------|---------------------|
              ||-------------------|---------------------|
              ||o-4----------------|-3-------------------|
              ||-------------------|---------------------|


              C#m Bbm
              E. E. Q E E E E. E. Q E E E 5x
              |-9-------------9--|-11--12--11--9-8-11----||
              |----9--10--7-9----|----------------------o||
              |------------------|-----------------------||
              |------------------|-----------------------||
              |------------------|----------------------o||
              |------------------|-----------------------||
              |
              | W W 5x
              |------------------|-----------------------||
              |------------------|----------------------o||
              |------------------|-----------------------||
              |------------------|-----------------------||
              |-4----------------|--1-------------------o||
              |------------------|-----------------------||


              Outro
              C#m Cm
              |-3--|
              E. E. Q E E E E. E. Q E E S S S
              ||--9-----------------|----------------------|
              ||o----9--10---7-9----|-7-------------7-9-10-|
              ||-----------------9--|----9--8---6-9--------|
              ||--------------------|----------------------|
              ||o-------------------|----------------------|
              ||--------------------|----------------------|
              |
              | W W
              ||--------------------|----------------------|
              ||o-------------------|----------------------|
              ||--------------------|----------------------|
              ||--------------------|----------------------|
              ||o-4-----------------|-3--------------------|
              ||--------------------|----------------------|
              |
              | Gtr IV
              | H Q Q H Q Q
              ||--------------------|----------------------|
              ||o----------4---5----|----------------------|
              ||--------------------|-------------5--------|
              ||--------------------|---------6------------|
              ||o-------------------|----------------------|
              ||--------------------|----------------------|


              C#m Bbm
              E. E. Q E E E E. E. Q E E E
              |-9--------------9--|-11--12--11---9-8-11----||
              |----9--10---7-9----|-----------------------o||
              |-------------------|------------------------||
              |-------------------|------------------------||
              |-------------------|-----------------------o||
              |-------------------|------------------------||
              |
              | W W
              |-------------------|------------------------||
              |-------------------|-----------------------o||
              |-------------------|------------------------||
              |-------------------|------------------------||
              |-4-----------------|--1--------------------o||
              |-------------------|------------------------||
              |
              | H Q Q H Q Q
              |-------------------|----------------4-------||
              |----------4---5----|------------4----------o||
              |-------------------|------------------------||
              |-------------------|------------------------||
              |-------------------|-----------------------o||
              |-------------------|------------------------||


              C#m Cm
              |-3--|
              E. E. Q E E E E. E. Q E E S S S
              |-9-----------------|----------------------|
              |----9--10---7-9----|-7-------------7-9-10-|
              |----------------9--|----9--8---6-9--------|
              |-------------------|----------------------|
              |-------------------|----------------------|
              |-------------------|----------------------|
              |
              | W W
              |-------------------|----------------------|
              |-------------------|----------------------|
              |-------------------|----------------------|
              |-------------------|----------------------|
              |-4-----------------|-3--------------------|
              |-------------------|----------------------|
              |
              | H Q Q H Q Q
              |-------------------|----------------------|
              |----------4---5----|----------------------|
              |-------------------|-------------5--------|
              |-------------------|---------6------------|
              |-------------------|----------------------|
              |-------------------|----------------------|


              C#m Bbm
              E. E. Q E E E E. E. Q E E E
              |-9--------------9--|-11--12--11---9-8-11--*|
              |----9--10---7-9----|----------------------*|
              |-------------------|----------------------*|
              |-------------------|----------------------*|
              |-------------------|----------------------*|
              |-------------------|----------------------*|
              |
              | W W
              |-------------------|----------------------*|
              |-------------------|----------------------*|
              |-------------------|----------------------*|
              |-------------------|----------------------*|
              |-4-----------------|--1-------------------*|
              |-------------------|----------------------*|
              |
              | H Q Q H Q Q
              |-------------------|----------------4-----*|
              |----------4---5----|------------4---------*|
              |-------------------|----------------------*|
              |-------------------|----------------------*|
              |-------------------|----------------------*|
              |-------------------|----------------------*|


              Duration Legend
              ---------------
              W - whole; H - half; Q - quarter; E - 8th; S - 16th; T - 32nd; X - 64th; a - acciaccatura
              + - note tied to previous; . - note dotted; .. - note double dotted
              Uncapitalized letters represent notes that are staccato (1/2 duration)
              Irregular groupings are notated above the duration line
              Duration letters will always appear directly above the note/fret number it represents the
              duration for. Duration letters with no fret number below them represent rests. Multi-
              bar rests are notated in the form Wxn, where n is the number of bars to rest for. Low
              melody durations appear below the staff

              Tablature Legend
              ----------------
              h - hammer-on
              p - pull-off
              b - bend
              pb - pre-bend
              r - bend release (if no number after the r, then release immediately)
              /\ - slide into or out of (from/to "nowhere")
              s - legato slide
              S - shift slide
              <n> - natural harmonic
              [n] - artificial harmonic
              n(n) - tapped harmonic
              ~ - vibrato
              tr - trill
              T - tap
              TP - trem. picking
              PM - palm muting
              \n/ - tremolo bar dip; n = amount to dip
              \n - tremolo bar down
              n/ - tremolo bar up
              /n\ - tremolo bar inverted dip
              = - hold bend; also acts as connecting device for hammers/pulls
              <> - volume swell (louder/softer)
              x - on rhythm slash represents muted slash
              o - on rhythm slash represents single note slash

              Misc Legend
              -----------
              | - bar
              || - double bar
              ||o - repeat start
              o|| - repeat end
              *| - double bar (ending)
              : - bar (freetime)
              $ - Segno
              & - Coda
              Tempo markers - <E/E./Q/Q./H/H.> = BPM(8/16=s8/s16), where s8 = swing 8ths, s16 = swing 16ths


              ************************************************** *************************************
              * Generated using Power Tab Editor by Brad Larsen - http://powertab.guitarnetwork.org *
              ************************************************** *************************************
              Spacerockmanifesto on Facebook

              Hawkwind tabs

              Comment


              • #8
                Definitely a good thing Des!
                That piece looks interesting Des,what album can i find it on as i wouldnt mind checking it out.
                "I hate to advocate drugs,alcohol,violence or insanity to anyone,but they've always worked for me"

                Hunter S Thompson

                Comment


                • #9
                  It's on "Within the Realms of a Dying Sun" and "A Passage in Time": the sequence of minor chords adds to an incredible sense of doom, and the lyrics have a bleakness to match it. Needless to say, one of my favorite tracks of all time....

                  Last edited by UncleDes; 10-09-2011, 05:51 AM. Reason: wrong album
                  Spacerockmanifesto on Facebook

                  Hawkwind tabs

                  Comment


                  • #10
                    Dead Can Dance - Windfall

                    Another DCD one off "Within the Realms..."

                    The intro chords are not quite right: any thoughts?

                    #----------------------------------PLEASE NOTE---------------------------------#
                    #This file is the author's own work and represents their interpretation of the #
                    #song. You may only use this file for private study, scholarship, or research. #
                    #------------------------------------------------------------------------------##

                    WINDFALL
                    As recorded by Dead Can Dance
                    (From the 1987 Album WITHIN THE REALM OF A DYING SUN)

                    Music by Brendan Perry / Lisa Gerrard
                    Arranged by Andy Mackie
                    Transcribed by UncleDes

                    Gtr I (E A D G B E) - 'Flute'
                    Gtr II (E A D G B E) - 'Strings'
                    Gtr III (E A D G B E) - 'Spooky'
                    Gtr IV (E A D G B E) - 'Piano'

                    Intro
                    Q=84
                    N.C.
                    4/4
                    Gtr I
                    W W
                    |-----------------------|-----------------------|
                    |-----------------------|-----------------------|
                    |-----------------------|-----------------------|
                    |-----------------------|-----------------------|
                    |-----------------------|-----------------------|
                    |-----------------------|-----------------------|
                    |
                    | Gtr II
                    | W W
                    |-----------------------|-----------------------|
                    |-----------------------|-----------------------|
                    |-----------------------|-----------------------|
                    |-----------------------|-----------------------|
                    |-----------------------|-----------------------|
                    |-----------------------|-----------------------|
                    |
                    | Gtr III
                    | E E E E E E E E E E E E E E E E
                    |-----------------------|-----------------------|
                    |-----------------------|-----------------------|
                    |-11-11---11---11-11-13-|-11-11---11---11-11-11-|
                    |-11-11---11---11-11-11-|-11-11---11---11-11-14-|
                    |-----------------------|-----------------------|
                    |-----------------------|-----------------------|


                    W W
                    |-----------------------|------------------------|
                    |-----------------------|------------------------|
                    |-----------------------|------------------------|
                    |-----------------------|------------------------|
                    |-----------------------|------------------------|
                    |-----------------------|------------------------|
                    |
                    | W W
                    |-----------------------|------------------------|
                    |-----------------------|------------------------|
                    |-----------------------|------------------------|
                    |-----------------------|------------------------|
                    |-----------------------|------------------------|
                    |-----------------------|------------------------|
                    |
                    | E E E E E E E E E E E E E E E E
                    |-----------------------|------------------------|
                    |-----------------------|------------------------|
                    |-11-11---11---11-11-13-|-11-11---11---11-11-13--|
                    |-13-13---13---13-13-13-|-13-13---13---13-13-13--|
                    |-----------------------|------------------------|
                    |-----------------------|------------------------|


                    W W
                    |-----------------------|-----------------------|
                    |-----------------------|-----------------------|
                    |-----------------------|-----------------------|
                    |-----------------------|-----------------------|
                    |-----------------------|-----------------------|
                    |-----------------------|-----------------------|
                    |
                    | W W
                    |-----------------------|-----------------------|
                    |-----------------------|-----------------------|
                    |-----------------------|-----------------------|
                    |-----------------------|-----------------------|
                    |-----------------------|-----------------------|
                    |-----------------------|-----------------------|
                    |
                    | E E E E E E E E E E E E E E E E
                    |-----------------------|-----------------------|
                    |-----------------------|-----------------------|
                    |-11-11---11---11-11-13-|-11-11---11---11-11-11-|
                    |-11-11---11---11-11-11-|-11-11---11---11-11-14-|
                    |-----------------------|-----------------------|
                    |-----------------------|-----------------------|


                    W W
                    |-----------------------|--------------------------|
                    |-----------------------|--------------------------|
                    |-----------------------|--------------------------|
                    |-----------------------|--------------------------|
                    |-----------------------|--------------------------|
                    |-----------------------|--------------------------|
                    |
                    | <
                    | W +W
                    |-11--------------------|-(11)---------------------|
                    |-14--------------------|-(14)---------------------|
                    |-----------------------|--------------------------|
                    |-----------------------|--------------------------|
                    |-----------------------|--------------------------|
                    |-----------------------|--------------------------|
                    |
                    | E E E E E E E E E E E E E E E E
                    |-----------------------|--------------------------|
                    |-----------------------|--------------------------|
                    |-11-11---11---11-11-13-|--11--11---11---11-11-13--|
                    |-13-13---13---13-13-13-|--13--13---13---13-13-13--|
                    |-----------------------|--------------------------|
                    |-----------------------|--------------------------|


                    Leaves Start to Move
                    N.C.
                    |-3--|
                    S S S Q. Q. +S S H Q.. S
                    ||------------------------------------|----------------------------|
                    ||o---------------------------------9-|-10-------------------------|
                    ||--11-10-8-10-------11--------(11)---|--------------------------9-|
                    ||------------------------------------|------------11--------------|
                    ||o-----------------------------------|----------------------------|
                    ||------------------------------------|----------------------------|
                    |
                    | W W
                    ||------------------------------------|----------------------------|
                    ||o-----------------------------------|----------------------------|
                    ||------------------------------------|----------------------------|
                    ||------------------------------------|----------------------------|
                    ||o-----------------------------------|----------------------------|
                    ||------------------------------------|----------------------------|
                    |
                    | E E E E E E E E E E E E E E E E
                    ||------------------------------------|----------------------------|
                    ||o-----------------------------------|----------------------------|
                    ||--11------11----11-----11-11--13----|-11-11---11------11-11-11---|
                    ||--11------11----11-----11-11--11----|-11-11---11------11-11-14---|
                    ||o-----------------------------------|----------------------------|
                    ||------------------------------------|----------------------------|


                    W +W 3x
                    |-----------------------|--------------------------||
                    |-----------------------|-------------------------o||
                    |--8--------------------|--(8)---------------------||
                    |-----------------------|--------------------------||
                    |-----------------------|-------------------------o||
                    |-----------------------|--------------------------||
                    |
                    | <
                    | W +W 3x
                    |-11--------------------|-(11)---------------------||
                    |-14--------------------|-(14)--------------------o||
                    |-----------------------|--------------------------||
                    |-----------------------|--------------------------||
                    |-----------------------|-------------------------o||
                    |-----------------------|--------------------------||
                    |
                    | E E E E E E E E E E E E E E E E 3x
                    |-----------------------|--------------------------||
                    |-----------------------|-------------------------o||
                    |-11-11---11---11-11-13-|--11--11---11---11-11-13--||
                    |-13-13---13---13-13-13-|--13--13---13---13-13-13--||
                    |-----------------------|-------------------------o||
                    |-----------------------|--------------------------||


                    |-3--|
                    S S S Q. Q. +S S H Q.. S
                    |-----------------------------------|----------------------------|
                    |---------------------------------9-|-10-------------------------|
                    |-11-10-8-10-------11--------(11)---|--------------------------9-|
                    |-----------------------------------|------------11--------------|
                    |-----------------------------------|----------------------------|
                    |-----------------------------------|----------------------------|
                    |
                    | W W
                    |-----------------------------------|----------------------------|
                    |-----------------------------------|----------------------------|
                    |-----------------------------------|----------------------------|
                    |-----------------------------------|----------------------------|
                    |-----------------------------------|----------------------------|
                    |-----------------------------------|----------------------------|
                    |
                    | E E E E E E E E E E E E E E E E
                    |-----------------------------------|----------------------------|
                    |-----------------------------------|----------------------------|
                    |-11------11----11-----11-11--13----|-11-11---11------11-11-11---|
                    |-11------11----11-----11-11--11----|-11-11---11------11-11-14---|
                    |-----------------------------------|----------------------------|
                    |-----------------------------------|----------------------------|


                    W +W
                    |-----------------------|--------------------------|
                    |-----------------------|--------------------------|
                    |--8--------------------|--(8)---------------------|
                    |-----------------------|--------------------------|
                    |-----------------------|--------------------------|
                    |-----------------------|--------------------------|
                    |
                    | <
                    | W +W
                    |-11--------------------|-(11)---------------------|
                    |-14--------------------|-(14)---------------------|
                    |-----------------------|--------------------------|
                    |-----------------------|--------------------------|
                    |-----------------------|--------------------------|
                    |-----------------------|--------------------------|
                    |
                    | E E E E E E E E E E E E E E E E
                    |-----------------------|--------------------------|
                    |-----------------------|----------------------14--|
                    |-11-11---11---11-11-13-|--11--11---11---11-11-13--|
                    |-13-13---13---13-13-13-|--13--13---13---13-13-13--|
                    |-----------------------|--------------------------|
                    |-----------------------|--------------------------|


                    Branches Shake
                    N.C.
                    H.. S S H H
                    |----------------------------|------------------------|
                    |----------------------------|------------------------|
                    |----------------------------|------------------------|
                    |-11-------------------13-11-|-10---------------------|
                    |----------------------------|------------11----------|
                    |----------------------------|------------------------|
                    |
                    | W W
                    |----------------------------|------------------------|
                    |----------------------------|------------------------|
                    |----------------------------|------------------------|
                    |----------------------------|------------------------|
                    |----------------------------|------------------------|
                    |----------------------------|------------------------|
                    |
                    | Gtr III
                    | E E E E E E E E E E E E E E E E
                    |-16---14--------------------|------------------------|
                    |----------------------------|---------------------11-|
                    |-11---11---11---11-11-13----|-11-11---11----11-11-11-|
                    |-11---11---11---11-11-11----|-11-11---11----11-11-14-|
                    |----------------------------|------------------------|
                    |----------------------------|------------------------|


                    E E E H +E +H E E E E
                    |--------------------------|--------------------------|
                    |--------------------------|--------------------------|
                    |--------------------------|--------------------------|
                    |----10-11-13---------(13)-|-(13)---------13-14-13-10-|
                    |-12-----------------------|--------------------------|
                    |--------------------------|--------------------------|
                    |
                    | <
                    | W +W
                    |-11-----------------------|-(11)---------------------|
                    |-14-----------------------|-(14)---------------------|
                    |--------------------------|--------------------------|
                    |--------------------------|--------------------------|
                    |--------------------------|--------------------------|
                    |--------------------------|--------------------------|
                    |
                    | E E E E E E E E E E E E E E E E
                    |-13-11--------------------|--------------------------|
                    |--------------------------|-----------------------14-|
                    |-11-11----11---11-11--13--|--11--11---11----11-11-13-|
                    |-13-13----13---13-13--13--|--13--13---13----13-13-13-|
                    |--------------------------|--------------------------|
                    |--------------------------|--------------------------|


                    H.. S S H H
                    |-----------------------------|------------------------|
                    |-----------------------------|------------------------|
                    |-----------------------------|------------------------|
                    |-11--------------------13-11-|-10---------------------|
                    |-----------------------------|------------11----------|
                    |-----------------------------|------------------------|
                    |
                    | W W
                    |-----------------------------|------------------------|
                    |-----------------------------|------------------------|
                    |-----------------------------|------------------------|
                    |-----------------------------|------------------------|
                    |-----------------------------|------------------------|
                    |-----------------------------|------------------------|
                    |
                    | E E E E E E E E E E E E E E E E
                    |-16---14-16-17---------------|------------------------|
                    |-----------------------------|---------------------11-|
                    |-11---11----11---11-11-13----|-11-11---11----11-11-11-|
                    |-11---11----11---11-11-11----|-11-11---11----11-11-14-|
                    |-----------------------------|------------------------|
                    |-----------------------------|------------------------|


                    E E E E +H +W
                    |---------------------------|-------------------------|
                    |---------------------------|-------------------------|
                    |---------------------------|-------------------------|
                    |----10-11------------------|-------------------------|
                    |-12------------------------|-------------------------|
                    |----------11-(11)----------|-(11)--------------------|
                    |
                    | <
                    | W +W
                    |-11------------------------|-(11)--------------------|
                    |-14------------------------|-(14)--------------------|
                    |---------------------------|-------------------------|
                    |---------------------------|-------------------------|
                    |---------------------------|-------------------------|
                    |---------------------------|-------------------------|
                    |
                    | E E E E E E E E E E E E E E E E
                    |-13-11---------------------|-------------------------|
                    |---------------------------|----------------------14-|
                    |-11-11----11------11-11-13-|--11--11---11---11-11-13-|
                    |-13-13----13------13-13-13-|--13--13---13---13-13-13-|
                    |---------------------------|-------------------------|
                    |---------------------------|-------------------------|


                    The Tree Sways
                    N.C.
                    H.. S S H H
                    |----------------------------|------------------------|
                    |----------------------------|------------------------|
                    |----------------------------|------------------------|
                    |-11-------------------13-11-|-10---------------------|
                    |----------------------------|------------11----------|
                    |----------------------------|------------------------|
                    |
                    | W W
                    |----------------------------|------------------------|
                    |----------------------------|------------------------|
                    |----------------------------|------------------------|
                    |----------------------------|------------------------|
                    |----------------------------|------------------------|
                    |----------------------------|------------------------|
                    |
                    | E E E E E E E E E E E E E E E E
                    |-16---14--------------------|------------------------|
                    |----------------------------|---------------------11-|
                    |-11---11---11---11-11-13----|-11-11---11----11-11-11-|
                    |-11---11---11---11-11-11----|-11-11---11----11-11-14-|
                    |----------------------------|------------------------|
                    |----------------------------|------------------------|


                    E E E H +E +H E E E E
                    |--------------------------|--------------------------|
                    |--------------------------|--------------------------|
                    |--------------------------|--------------------------|
                    |----10-11-13---------(13)-|-(13)---------13-14-13-10-|
                    |-12-----------------------|--------------------------|
                    |--------------------------|--------------------------|
                    |
                    | <
                    | W +W
                    |-11-----------------------|-(11)---------------------|
                    |-14-----------------------|-(14)---------------------|
                    |--------------------------|--------------------------|
                    |--------------------------|--------------------------|
                    |--------------------------|--------------------------|
                    |--------------------------|--------------------------|
                    |
                    | E E E E E E E E E E E E E E E E
                    |-13-11--------------------|--------------------------|
                    |--------------------------|-----------------------14-|
                    |-11-11----11---11-11--13--|--11--11---11----11-11-13-|
                    |-13-13----13---13-13--13--|--13--13---13----13-13-13-|
                    |--------------------------|--------------------------|
                    |--------------------------|--------------------------|


                    H.. S S H H
                    |-----------------------------|------------------------|
                    |-----------------------------|------------------------|
                    |-----------------------------|------------------------|
                    |-11--------------------13-11-|-10---------------------|
                    |-----------------------------|------------11----------|
                    |-----------------------------|------------------------|
                    |
                    | W W
                    |-----------------------------|------------------------|
                    |-----------------------------|------------------------|
                    |-----------------------------|------------------------|
                    |-----------------------------|------------------------|
                    |-----------------------------|------------------------|
                    |-----------------------------|------------------------|
                    |
                    | E E E E E E E E E E E E E E E E
                    |-16---14-16-17---------------|------------------------|
                    |-----------------------------|---------------------11-|
                    |-11---11----11---11-11-13----|-11-11---11----11-11-11-|
                    |-11---11----11---11-11-11----|-11-11---11----11-11-14-|
                    |-----------------------------|------------------------|
                    |-----------------------------|------------------------|


                    E E E E +H +W
                    |---------------------------|-------------------------|
                    |---------------------------|-------------------------|
                    |---------------------------|-------------------------|
                    |----10-11------------------|-------------------------|
                    |-12------------------------|-------------------------|
                    |----------11-(11)----------|-(11)--------------------|
                    |
                    | <
                    | W +W
                    |-11------------------------|-(11)--------------------|
                    |-14------------------------|-(14)--------------------|
                    |---------------------------|-------------------------|
                    |---------------------------|-------------------------|
                    |---------------------------|-------------------------|
                    |---------------------------|-------------------------|
                    |
                    | E E E E E E E E E E E E E E E E
                    |-13-11---------------------|-------------------------|
                    |---------------------------|----------------------14-|
                    |-11-11----11------11-11-13-|--11--11---11---11-11-13-|
                    |-13-13----13------13-13-13-|--13--13---13---13-13-13-|
                    |---------------------------|-------------------------|
                    |---------------------------|-------------------------|


                    The Apple Falls
                    N.C.
                    H.. S S H H
                    ||----------------------------------------------|-------------------------------------------|
                    ||o---------------------------------------------|-------------------------------------------|
                    ||----------------------------------------------|-------------------------------------------|
                    ||--11------------------------------------13-11-|-10----------------------------------------|
                    ||o---------------------------------------------|----------------------11-------------------|
                    ||----------------------------------------------|-------------------------------------------|
                    |
                    | Gtr IV
                    | S S S S E S S S S E S S S S S S S S E S S S S E S S S S
                    ||----------------------------------------------|-------------------------------------------|
                    ||o-16---------17-16-16-------17-16-16----------|-16-------17-16-16-------17-16-16----------|
                    ||-------14-------------14-------------14----14-|----14-------------14-------------14----14-|
                    ||----------16-------------16-------------16----|-------16-------------16-------------16----|
                    ||o---------------------------------------------|-------------------------------------------|
                    ||----------------------------------------------|-------------------------------------------|
                    |
                    | E E E E E E E E E E E E E E E E
                    ||--16------14----------------------------------|-------------------------------------------|
                    ||o---------------------------------------------|-------------------------------------11----|
                    ||--11------11-------11----------11-11----13----|-11----11-------11----------11-11----11----|
                    ||--11------11-------11----------11-11----11----|-11----11-------11----------11-11----14----|
                    ||o---------------------------------------------|-------------------------------------------|
                    ||----------------------------------------------|-------------------------------------------|


                    E E E H +E +H E E E E
                    |---------------------------------------------|------------------------------------------------|
                    |---------------------------------------------|------------------------------------------------|
                    |---------------------------------------------|------------------------------------------------|
                    |-------10----11-13-------------------(13)----|-(13)-------------------13----14-13----10-------|
                    |-12------------------------------------------|------------------------------------------------|
                    |---------------------------------------------|------------------------------------------------|
                    |
                    | S S S S E S S S S E S S S S S S S S E S S S S E S S S S
                    |---------------------------------------------|------------------------------------------------|
                    |-16-------17-16-16-------17-16-16------------|--16--------17-16-16-------17-16-16-------------|
                    |----14-------------14-------------14------14-|------14-------------14-------------14----14----|
                    |-------16-------------16--------------16-----|---------16-------------16-------------16-------|
                    |---------------------------------------------|------------------------------------------------|
                    |---------------------------------------------|------------------------------------------------|
                    |
                    | E E E E E E E E E E E E E E E E
                    |-13----11------------------------------------|------------------------------------------------|
                    |---------------------------------------------|---------------------------------------14-------|
                    |-11----11-------11----------11-11-----13-----|--11-----11-------11----------11-11----13-------|
                    |-13----13-------13----------13-13-----13-----|--13-----13-------13----------13-13----13-------|
                    |---------------------------------------------|------------------------------------------------|
                    |---------------------------------------------|------------------------------------------------|


                    H.. S S H H
                    |---------------------------------------------|-------------------------------------------|
                    |---------------------------------------------|-------------------------------------------|
                    |---------------------------------------------|-------------------------------------------|
                    |-11------------------------------------13-11-|-10----------------------------------------|
                    |---------------------------------------------|----------------------11-------------------|
                    |---------------------------------------------|-------------------------------------------|
                    |
                    | S S S S E S S S S E S S S S S S S S E S S S S E S S S S
                    |---------------------------------------------|-------------------------------------------|
                    |-16---------17-16-16-------17-16-16----------|-16-------17-16-16-------17-16-16----------|
                    |------14-------------14-------------14----14-|----14-------------14-------------14----14-|
                    |---------16-------------16-------------16----|-------16-------------16-------------16----|
                    |---------------------------------------------|-------------------------------------------|
                    |---------------------------------------------|-------------------------------------------|
                    |
                    | E E E E E E E E E E E E E E E E
                    |-16------14----16-17-------------------------|-------------------------------------------|
                    |---------------------------------------------|-------------------------------------11----|
                    |-11------11-------11----------11-11----13----|-11----11-------11----------11-11----11----|
                    |-11------11-------11----------11-11----11----|-11----11-------11----------11-11----14----|
                    |---------------------------------------------|-------------------------------------------|
                    |---------------------------------------------|-------------------------------------------|


                    E E E E +H +W 3x
                    |---------------------------------------------|-------------------------------------------------||
                    |---------------------------------------------|------------------------------------------------o||
                    |---------------------------------------------|-------------------------------------------------||
                    |-------10----11------------------------------|-------------------------------------------------||
                    |-12------------------------------------------|------------------------------------------------o||
                    |----------------11----(11)-------------------|-(11)--------------------------------------------||
                    |
                    | S S S S E S S S S E S S S S S S S S E S S S S E S S S S 3x
                    |---------------------------------------------|-------------------------------------------------||
                    |-16-------17-16-16---------17-16-16----------|--16--------17-16-16-------17-16-16-------------o||
                    |----14-------------14---------------14----14-|------14-------------14-------------14----14-----||
                    |-------16--------------16--------------16----|---------16-------------16-------------16--------||
                    |---------------------------------------------|------------------------------------------------o||
                    |---------------------------------------------|-------------------------------------------------||
                    |
                    | E E E E E E E E E E E E E E E E 3x
                    |-13----11------------------------------------|-------------------------------------------------||
                    |---------------------------------------------|---------------------------------------14-------o||
                    |-11----11-------11------------11-11----13----|--11-----11-------11----------11-11----13--------||
                    |-13----13-------13------------13-13----13----|--13-----13-------13----------13-13----13--------||
                    |---------------------------------------------|------------------------------------------------o||
                    |---------------------------------------------|-------------------------------------------------||


                    Outro
                    >
                    W +W
                    |-------------|---------*|
                    |-------------|---------*|
                    |-------------|---------*|
                    |--11---------|-(11)----*|
                    |-------------|---------*|
                    |-------------|---------*|
                    |
                    | W W
                    |-------------|---------*|
                    |-------------|---------*|
                    |-------------|---------*|
                    |-------------|---------*|
                    |-------------|---------*|
                    |-------------|---------*|
                    |
                    | >
                    | W +W
                    |--11---------|-(11)----*|
                    |-(14)--------|-(14)----*|
                    |-------------|---------*|
                    |-------------|---------*|
                    |-------------|---------*|
                    |-------------|---------*|


                    Duration Legend
                    ---------------
                    W - whole; H - half; Q - quarter; E - 8th; S - 16th; T - 32nd; X - 64th; a - acciaccatura
                    + - note tied to previous; . - note dotted; .. - note double dotted
                    Uncapitalized letters represent notes that are staccato (1/2 duration)
                    Irregular groupings are notated above the duration line
                    Duration letters will always appear directly above the note/fret number it represents the
                    duration for. Duration letters with no fret number below them represent rests. Multi-
                    bar rests are notated in the form Wxn, where n is the number of bars to rest for. Low
                    melody durations appear below the staff

                    Tablature Legend
                    ----------------
                    h - hammer-on
                    p - pull-off
                    b - bend
                    pb - pre-bend
                    r - bend release (if no number after the r, then release immediately)
                    /\ - slide into or out of (from/to "nowhere")
                    s - legato slide
                    S - shift slide
                    <n> - natural harmonic
                    [n] - artificial harmonic
                    n(n) - tapped harmonic
                    ~ - vibrato
                    tr - trill
                    T - tap
                    TP - trem. picking
                    PM - palm muting
                    \n/ - tremolo bar dip; n = amount to dip
                    \n - tremolo bar down
                    n/ - tremolo bar up
                    /n\ - tremolo bar inverted dip
                    = - hold bend; also acts as connecting device for hammers/pulls
                    <> - volume swell (louder/softer)
                    x - on rhythm slash represents muted slash
                    o - on rhythm slash represents single note slash

                    Misc Legend
                    -----------
                    | - bar
                    || - double bar
                    ||o - repeat start
                    o|| - repeat end
                    *| - double bar (ending)
                    : - bar (freetime)
                    $ - Segno
                    & - Coda
                    Tempo markers - <E/E./Q/Q./H/H.> = BPM(8/16=s8/s16), where s8 = swing 8ths, s16 = swing 16ths


                    ************************************************** *************************************
                    * Generated using Power Tab Editor by Brad Larsen - http://powertab.guitarnetwork.org *
                    ************************************************** *************************************
                    Spacerockmanifesto on Facebook

                    Hawkwind tabs

                    Comment


                    • #11
                      #----------------------------------PLEASE NOTE---------------------------------#
                      #This file is the author's own work and represents their interpretation of the #
                      #song. You may only use this file for private study, scholarship, or research. #
                      #------------------------------------------------------------------------------#

                      FATHER TED SIGNATURE TUNE
                      As recorded by The Divine Comedy (Neil Hannon)

                      Transcribed by UncleDes


                      Music by The Divine Comedy (Neil Hannon)
                      Arranged by UncleDes

                      Gtr I (E A D G B E) - 'Untitled'
                      Gtr II (E A D G B E) - 'Untitled'
                      Gtr III (E A D G B E) - 'Untitled'

                      Theme
                      Q.=62
                      C F G
                      6/8
                      Gtr I
                      Q. Q E Q. Q E Q. Q E
                      |----------------------|-----------------------|----------------------|
                      |----------------------|-----------------------|----------------------|
                      |-5--------------------|-----------------------|----------------------|
                      |------------7-----5---|-7----------5----------|-5--------------------|
                      |----------------------|------------------/7---|------------7-----5---|
                      |----------------------|-----------------------|----------------------|
                      |
                      | Gtr II
                      | E S S S S E S S S S E S S S S E S S S S E S S S S E S S S S
                      |-0--0-0-0-0-0-0-0-0-0-|-1--1-1-1-1-1-1-1--1-1-|-3--3-3-3-3-3-3-3-3-3-|
                      |-1--1-1-1-1-1-1-1-1-1-|-1--1-1-1-1-1-1-1--1-1-|-3--3-3-3-3-3-3-3-3-3-|
                      |-0--0-0-0-0-0-0-0-0-0-|-2--2-2-2-2-2-2-2--2-2-|-0--0-0-0-0-0-0-0-0-0-|
                      |-2--2-2-2-2-2-2-2-2-2-|-3--3-3-3-3-3-3-3--3-3-|-0--0-0-0-0-0-0-0-0-0-|
                      |-3--3-3-3-3-3-3-3-3-3-|-3--3-3-3-3-3-3-3--3-3-|-2--3-3-3-3-2-3-3-3-3-|
                      |----------------------|-1--1-1-1-1-1-1-1--1-1-|-3--3-3-3-3-3-3-3-3-3-|


                      Am Dm
                      Q. E E E Q. Q E
                      |----------------------|---------------------------|
                      |----------------------|---------------------------|
                      |------------------5---|-/7----------5-------------|
                      |--------------7-------|-------------------/7------|
                      |-7----------7---------|---------------------------|
                      |----------------------|---------------------------|
                      |
                      | E S S S S E S S S S E S S S S E S S S S
                      |-0--0-0-0-0-0-0-0-0-0-|--1--1-1-1-1-1-1-1--1-1----|
                      |-1--1-1-1-1-1-1-1-1-1-|--3--3-3-3-3-3-3-3--3-3----|
                      |-2--2-2-2-2-2-2-2-2-2-|--2--2-2-2-2-2-2-2--2-2----|
                      |-2--2-2-2-2-2-2-2-2-2-|--0--0-0-0-0-0-0-0--0-0----|
                      |-0--0-0-0-0-0-0-0-0-0-|---------------------------|
                      |----------------------|---------------------------|


                      F Eb Db7
                      Q. Q E Q. Q E Q. E E E
                      |----------------------|----------------------|----------------------|
                      |----------------------|----------------------|----------------------|
                      |-5--------------------|----------------------|------------------4---|
                      |------------7-----5---|-7----------5---------|-5----------3-6-------|
                      |----------------------|------------------6---|----------------------|
                      |----------------------|----------------------|----------------------|
                      |
                      | E S S S S E S S S S E S S S S E S S S S E S S S S E S S S S
                      |-1--1-1-1-1-1-1-1-1-1-|-6--6-6-6-6-6-6-6-6-6-|-4--4-4-4-4-4-4-4-4-4-|
                      |-1--1-1-1-1-1-1-1-1-1-|-8--8-8-8-8-8-8-8-8-8-|-6--6-6-6-6-6-6-6-6-6-|
                      |-2--2-2-2-2-2-2-2-2-2-|-8--8-8-8-8-8-8-8-8-8-|-4--4-4-4-4-4-4-4-4-4-|
                      |-3--3-3-3-3-3-3-3-3-3-|-8--8-8-8-8-8-8-8-8-8-|-6--6-6-6-6-6-6-6-6-6-|
                      |-3--3-3-3-3-3-3-3-3-3-|-6--6-6-6-6-6-6-6-6-6-|-4--4-4-4-4-4-4-4-4-4-|
                      |-1--1-1-1-1-1-1-1-1-1-|----------------------|----------------------|


                      C F
                      Q. Q E Q. Q E
                      |----------------------|-----------------------|
                      |----------------------|-----------------------|
                      |-5--------------------|-----------------------|
                      |------------7-----5---|-7----------5----------|
                      |----------------------|------------------/7---|
                      |----------------------|-----------------------|
                      |
                      | E S S S S E S S S S E S S S S E S S S S
                      |-0--0-0-0-0-0-0-0-0-0-|-1--1-1-1-1-1-1-1--1-1-|
                      |-1--1-1-1-1-1-1-1-1-1-|-1--1-1-1-1-1-1-1--1-1-|
                      |-0--0-0-0-0-0-0-0-0-0-|-2--2-2-2-2-2-2-2--2-2-|
                      |-2--2-2-2-2-2-2-2-2-2-|-3--3-3-3-3-3-3-3--3-3-|
                      |-3--3-3-3-3-3-3-3-3-3-|-3--3-3-3-3-3-3-3--3-3-|
                      |----------------------|-1--1-1-1-1-1-1-1--1-1-|


                      G Am
                      H E E Q. E E E
                      |----------------------|-----------------------|
                      |----------------------|-----------------------|
                      |----------------------|------------------5----|
                      |-5--------------------|--------------7--------|
                      |-------------7---\5---|-7----------7----------|
                      |----------------------|-----------------------|
                      |
                      | E S S S S E S S S S E S S S S E S S S S
                      |-3-3-3-3-3-3-3-3--3-3-|-0--0-0-0-0-0-0-0-0-0--|
                      |-3-3-3-3-3-3-3-3--3-3-|-1--1-1-1-1-1-1-1-1-1--|
                      |-0-0-0-0-0-0-0-0--0-0-|-2--2-2-2-2-2-2-2-2-2--|
                      |-0-0-0-0-0-0-0-0--0-0-|-2--2-2-2-2-2-2-2-2-2--|
                      |-2-3-3-3-3-2-3-3--3-3-|-0--0-0-0-0-0-0-0-0-0--|
                      |-3-3-3-3-3-3-3-3--3-3-|-----------------------|


                      C F C
                      Q. Q E Q. Q E H.
                      |----------------------|-----------------------|--------*|
                      |----------------------|-----------------------|--------*|
                      |-7----------5---------|--5--------------------|--5-----*|
                      |------------------7---|-------------5-----7---|--5-----*|
                      |----------------------|-----------------------|--------*|
                      |----------------------|-----------------------|--------*|
                      |
                      | E S S S S E S S S S E S S S S E S S S S H.
                      |-0--0-0-0-0-0-0-0-0-0-|--1--1-1-1-1-1-1-1-1-1-|--0-----*|
                      |-1--1-1-1-1-1-1-1-1-1-|--1--1-1-1-1-1-1-1-1-1-|--1-----*|
                      |-0--0-0-0-0-0-0-0-0-0-|--2--2-2-2-2-2-2-2-2-2-|--0-----*|
                      |-2--2-2-2-2-2-2-2-2-2-|--3--3-3-3-3-3-3-3-3-3-|--2-----*|
                      |-3--3-3-3-3-3-3-3-3-3-|--3--3-3-3-3-3-3-3-3-3-|--3-----*|
                      |----------------------|--1--1-1-1-1-1-1-1-1-1-|--------*|
                      |
                      | Gtr III
                      | H. +H. +H.
                      |----------------------|-----------------------|--------*|
                      |----------------------|-----------------------|--------*|
                      |-0--------------------|-(0)-------------------|-(0)----*|
                      |----------------------|-----------------------|--------*|
                      |----------------------|-----------------------|--------*|
                      |----------------------|-----------------------|--------*|



                      Duration Legend
                      ---------------
                      W - whole; H - half; Q - quarter; E - 8th; S - 16th; T - 32nd; X - 64th; a - acciaccatura
                      + - note tied to previous; . - note dotted; .. - note double dotted
                      Uncapitalized letters represent notes that are staccato (1/2 duration)
                      Irregular groupings are notated above the duration line
                      Duration letters will always appear directly above the note/fret number it represents the
                      duration for. Duration letters with no fret number below them represent rests. Multi-
                      bar rests are notated in the form Wxn, where n is the number of bars to rest for. Low
                      melody durations appear below the staff

                      Tablature Legend
                      ----------------
                      h - hammer-on
                      p - pull-off
                      b - bend
                      pb - pre-bend
                      r - bend release (if no number after the r, then release immediately)
                      /\ - slide into or out of (from/to "nowhere")
                      s - legato slide
                      S - shift slide
                      <n> - natural harmonic
                      [n] - artificial harmonic
                      n(n) - tapped harmonic
                      ~ - vibrato
                      tr - trill
                      T - tap
                      TP - trem. picking
                      PM - palm muting
                      \n/ - tremolo bar dip; n = amount to dip
                      \n - tremolo bar down
                      n/ - tremolo bar up
                      /n\ - tremolo bar inverted dip
                      = - hold bend; also acts as connecting device for hammers/pulls
                      <> - volume swell (louder/softer)
                      x - on rhythm slash represents muted slash
                      o - on rhythm slash represents single note slash

                      Misc Legend
                      -----------
                      | - bar
                      || - double bar
                      ||o - repeat start
                      o|| - repeat end
                      *| - double bar (ending)
                      : - bar (freetime)
                      $ - Segno
                      & - Coda
                      Tempo markers - <E/E./Q/Q./H/H.> = BPM(8/16=s8/s16), where s8 = swing 8ths, s16 = swing 16ths


                      ** Generated using Power Tab Editor by Brad Larsen: The Official Power Tab Web Site
                      Spacerockmanifesto on Facebook

                      Hawkwind tabs

                      Comment

                      Working...
                      X